ISO-10303-21;
HEADER;
/* Generated by software containing ST-Developer
 * from STEP Tools, Inc. (www.steptools.com) 
 */

FILE_DESCRIPTION(
/* description */ (''),
/* implementation_level */ '2;1');

FILE_NAME(
/* name */ 
'C:\\Dropbox\\3d printer\\dllpdf stuff\\cad stuff\\dllpdf tee slot sec
tions\\1515\\nut tool.stp',
/* time_stamp */ '2023-11-20T10:01:09-05:00',
/* author */ ('berts'),
/* organization */ (''),
/* preprocessor_version */ 'ST-DEVELOPER v19',
/* originating_system */ 'Autodesk Inventor 2023',
/* authorisation */ '');

FILE_SCHEMA (('AUTOMOTIVE_DESIGN { 1 0 10303 214 3 1 1 }'));
ENDSEC;

DATA;
#10=MECHANICAL_DESIGN_GEOMETRIC_PRESENTATION_REPRESENTATION('',(#13),#533);
#11=SHAPE_REPRESENTATION_RELATIONSHIP('SRR','None',#544,#12);
#12=ADVANCED_BREP_SHAPE_REPRESENTATION('',(#14),#532);
#13=STYLED_ITEM('',(#553),#14);
#14=MANIFOLD_SOLID_BREP('Solid1',#321);
#15=FACE_BOUND('',#65,.T.);
#16=PLANE('',#346);
#17=PLANE('',#347);
#18=PLANE('',#348);
#19=PLANE('',#349);
#20=PLANE('',#350);
#21=PLANE('',#351);
#22=PLANE('',#352);
#23=PLANE('',#353);
#24=PLANE('',#354);
#25=PLANE('',#355);
#26=PLANE('',#356);
#27=PLANE('',#357);
#28=PLANE('',#358);
#29=PLANE('',#359);
#30=PLANE('',#360);
#31=PLANE('',#361);
#32=FACE_OUTER_BOUND('',#49,.T.);
#33=FACE_OUTER_BOUND('',#50,.T.);
#34=FACE_OUTER_BOUND('',#51,.T.);
#35=FACE_OUTER_BOUND('',#52,.T.);
#36=FACE_OUTER_BOUND('',#53,.T.);
#37=FACE_OUTER_BOUND('',#54,.T.);
#38=FACE_OUTER_BOUND('',#55,.T.);
#39=FACE_OUTER_BOUND('',#56,.T.);
#40=FACE_OUTER_BOUND('',#57,.T.);
#41=FACE_OUTER_BOUND('',#58,.T.);
#42=FACE_OUTER_BOUND('',#59,.T.);
#43=FACE_OUTER_BOUND('',#60,.T.);
#44=FACE_OUTER_BOUND('',#61,.T.);
#45=FACE_OUTER_BOUND('',#62,.T.);
#46=FACE_OUTER_BOUND('',#63,.T.);
#47=FACE_OUTER_BOUND('',#64,.T.);
#48=FACE_OUTER_BOUND('',#66,.T.);
#49=EDGE_LOOP('',(#219,#220,#221,#222));
#50=EDGE_LOOP('',(#223));
#51=EDGE_LOOP('',(#224,#225,#226,#227));
#52=EDGE_LOOP('',(#228,#229,#230,#231));
#53=EDGE_LOOP('',(#232,#233,#234,#235));
#54=EDGE_LOOP('',(#236,#237,#238,#239));
#55=EDGE_LOOP('',(#240,#241,#242,#243));
#56=EDGE_LOOP('',(#244,#245,#246,#247,#248,#249,#250,#251));
#57=EDGE_LOOP('',(#252,#253,#254,#255,#256));
#58=EDGE_LOOP('',(#257,#258,#259,#260));
#59=EDGE_LOOP('',(#261,#262,#263,#264));
#60=EDGE_LOOP('',(#265,#266,#267,#268,#269,#270));
#61=EDGE_LOOP('',(#271,#272,#273,#274,#275));
#62=EDGE_LOOP('',(#276,#277,#278,#279,#280,#281,#282,#283,#284,#285));
#63=EDGE_LOOP('',(#286,#287,#288,#289,#290,#291));
#64=EDGE_LOOP('',(#292,#293,#294,#295));
#65=EDGE_LOOP('',(#296));
#66=EDGE_LOOP('',(#297,#298,#299,#300,#301,#302));
#67=LINE('',#447,#107);
#68=LINE('',#453,#108);
#69=LINE('',#455,#109);
#70=LINE('',#457,#110);
#71=LINE('',#458,#111);
#72=LINE('',#461,#112);
#73=LINE('',#463,#113);
#74=LINE('',#464,#114);
#75=LINE('',#467,#115);
#76=LINE('',#469,#116);
#77=LINE('',#470,#117);
#78=LINE('',#472,#118);
#79=LINE('',#476,#119);
#80=LINE('',#478,#120);
#81=LINE('',#480,#121);
#82=LINE('',#481,#122);
#83=LINE('',#484,#123);
#84=LINE('',#485,#124);
#85=LINE('',#487,#125);
#86=LINE('',#488,#126);
#87=LINE('',#492,#127);
#88=LINE('',#494,#128);
#89=LINE('',#496,#129);
#90=LINE('',#498,#130);
#91=LINE('',#499,#131);
#92=LINE('',#502,#132);
#93=LINE('',#504,#133);
#94=LINE('',#505,#134);
#95=LINE('',#508,#135);
#96=LINE('',#509,#136);
#97=LINE('',#512,#137);
#98=LINE('',#514,#138);
#99=LINE('',#516,#139);
#100=LINE('',#517,#140);
#101=LINE('',#520,#141);
#102=LINE('',#521,#142);
#103=LINE('',#523,#143);
#104=LINE('',#524,#144);
#105=LINE('',#526,#145);
#106=LINE('',#528,#146);
#107=VECTOR('',#368,0.0393700787401575);
#108=VECTOR('',#375,0.393700787401575);
#109=VECTOR('',#376,0.393700787401575);
#110=VECTOR('',#377,0.393700787401575);
#111=VECTOR('',#378,0.393700787401575);
#112=VECTOR('',#381,0.393700787401575);
#113=VECTOR('',#382,0.393700787401575);
#114=VECTOR('',#383,0.393700787401575);
#115=VECTOR('',#386,0.393700787401575);
#116=VECTOR('',#387,0.393700787401575);
#117=VECTOR('',#388,0.393700787401575);
#118=VECTOR('',#391,0.393700787401575);
#119=VECTOR('',#394,0.393700787401575);
#120=VECTOR('',#395,0.393700787401575);
#121=VECTOR('',#396,0.393700787401575);
#122=VECTOR('',#397,0.393700787401575);
#123=VECTOR('',#400,0.393700787401575);
#124=VECTOR('',#401,0.393700787401575);
#125=VECTOR('',#402,0.393700787401575);
#126=VECTOR('',#403,0.393700787401575);
#127=VECTOR('',#406,0.393700787401575);
#128=VECTOR('',#407,0.393700787401575);
#129=VECTOR('',#408,0.393700787401575);
#130=VECTOR('',#409,0.393700787401575);
#131=VECTOR('',#410,0.393700787401575);
#132=VECTOR('',#413,0.393700787401575);
#133=VECTOR('',#414,0.393700787401575);
#134=VECTOR('',#415,0.393700787401575);
#135=VECTOR('',#418,0.393700787401575);
#136=VECTOR('',#419,0.393700787401575);
#137=VECTOR('',#422,0.393700787401575);
#138=VECTOR('',#423,0.393700787401575);
#139=VECTOR('',#424,0.393700787401575);
#140=VECTOR('',#425,0.393700787401575);
#141=VECTOR('',#428,0.393700787401575);
#142=VECTOR('',#429,0.393700787401575);
#143=VECTOR('',#432,0.393700787401575);
#144=VECTOR('',#433,0.393700787401575);
#145=VECTOR('',#436,0.393700787401575);
#146=VECTOR('',#439,0.393700787401575);
#147=CIRCLE('',#344,0.0393700787401575);
#148=CIRCLE('',#345,0.0393700787401575);
#149=VERTEX_POINT('',#444);
#150=VERTEX_POINT('',#446);
#151=VERTEX_POINT('',#451);
#152=VERTEX_POINT('',#452);
#153=VERTEX_POINT('',#454);
#154=VERTEX_POINT('',#456);
#155=VERTEX_POINT('',#460);
#156=VERTEX_POINT('',#462);
#157=VERTEX_POINT('',#466);
#158=VERTEX_POINT('',#468);
#159=VERTEX_POINT('',#474);
#160=VERTEX_POINT('',#475);
#161=VERTEX_POINT('',#477);
#162=VERTEX_POINT('',#479);
#163=VERTEX_POINT('',#483);
#164=VERTEX_POINT('',#486);
#165=VERTEX_POINT('',#490);
#166=VERTEX_POINT('',#491);
#167=VERTEX_POINT('',#493);
#168=VERTEX_POINT('',#495);
#169=VERTEX_POINT('',#497);
#170=VERTEX_POINT('',#501);
#171=VERTEX_POINT('',#503);
#172=VERTEX_POINT('',#507);
#173=VERTEX_POINT('',#511);
#174=VERTEX_POINT('',#513);
#175=VERTEX_POINT('',#515);
#176=VERTEX_POINT('',#519);
#177=EDGE_CURVE('',#149,#149,#147,.T.);
#178=EDGE_CURVE('',#149,#150,#67,.T.);
#179=EDGE_CURVE('',#150,#150,#148,.T.);
#180=EDGE_CURVE('',#151,#152,#68,.T.);
#181=EDGE_CURVE('',#151,#153,#69,.T.);
#182=EDGE_CURVE('',#154,#153,#70,.T.);
#183=EDGE_CURVE('',#152,#154,#71,.T.);
#184=EDGE_CURVE('',#152,#155,#72,.T.);
#185=EDGE_CURVE('',#156,#154,#73,.T.);
#186=EDGE_CURVE('',#155,#156,#74,.T.);
#187=EDGE_CURVE('',#157,#151,#75,.T.);
#188=EDGE_CURVE('',#157,#158,#76,.T.);
#189=EDGE_CURVE('',#153,#158,#77,.T.);
#190=EDGE_CURVE('',#158,#156,#78,.T.);
#191=EDGE_CURVE('',#159,#160,#79,.T.);
#192=EDGE_CURVE('',#159,#161,#80,.T.);
#193=EDGE_CURVE('',#162,#161,#81,.T.);
#194=EDGE_CURVE('',#160,#162,#82,.T.);
#195=EDGE_CURVE('',#155,#163,#83,.T.);
#196=EDGE_CURVE('',#163,#162,#84,.T.);
#197=EDGE_CURVE('',#161,#164,#85,.T.);
#198=EDGE_CURVE('',#164,#157,#86,.T.);
#199=EDGE_CURVE('',#165,#166,#87,.T.);
#200=EDGE_CURVE('',#166,#167,#88,.T.);
#201=EDGE_CURVE('',#167,#168,#89,.T.);
#202=EDGE_CURVE('',#168,#169,#90,.T.);
#203=EDGE_CURVE('',#169,#165,#91,.T.);
#204=EDGE_CURVE('',#170,#169,#92,.T.);
#205=EDGE_CURVE('',#171,#170,#93,.T.);
#206=EDGE_CURVE('',#165,#171,#94,.T.);
#207=EDGE_CURVE('',#172,#168,#95,.T.);
#208=EDGE_CURVE('',#170,#172,#96,.T.);
#209=EDGE_CURVE('',#167,#173,#97,.T.);
#210=EDGE_CURVE('',#173,#174,#98,.T.);
#211=EDGE_CURVE('',#174,#175,#99,.T.);
#212=EDGE_CURVE('',#172,#175,#100,.T.);
#213=EDGE_CURVE('',#175,#176,#101,.T.);
#214=EDGE_CURVE('',#176,#171,#102,.T.);
#215=EDGE_CURVE('',#176,#163,#103,.T.);
#216=EDGE_CURVE('',#166,#164,#104,.T.);
#217=EDGE_CURVE('',#160,#174,#105,.T.);
#218=EDGE_CURVE('',#173,#159,#106,.T.);
#219=ORIENTED_EDGE('',*,*,#177,.F.);
#220=ORIENTED_EDGE('',*,*,#178,.T.);
#221=ORIENTED_EDGE('',*,*,#179,.F.);
#222=ORIENTED_EDGE('',*,*,#178,.F.);
#223=ORIENTED_EDGE('',*,*,#177,.T.);
#224=ORIENTED_EDGE('',*,*,#180,.F.);
#225=ORIENTED_EDGE('',*,*,#181,.T.);
#226=ORIENTED_EDGE('',*,*,#182,.F.);
#227=ORIENTED_EDGE('',*,*,#183,.F.);
#228=ORIENTED_EDGE('',*,*,#184,.F.);
#229=ORIENTED_EDGE('',*,*,#183,.T.);
#230=ORIENTED_EDGE('',*,*,#185,.F.);
#231=ORIENTED_EDGE('',*,*,#186,.F.);
#232=ORIENTED_EDGE('',*,*,#187,.F.);
#233=ORIENTED_EDGE('',*,*,#188,.T.);
#234=ORIENTED_EDGE('',*,*,#189,.F.);
#235=ORIENTED_EDGE('',*,*,#181,.F.);
#236=ORIENTED_EDGE('',*,*,#189,.T.);
#237=ORIENTED_EDGE('',*,*,#190,.T.);
#238=ORIENTED_EDGE('',*,*,#185,.T.);
#239=ORIENTED_EDGE('',*,*,#182,.T.);
#240=ORIENTED_EDGE('',*,*,#191,.F.);
#241=ORIENTED_EDGE('',*,*,#192,.T.);
#242=ORIENTED_EDGE('',*,*,#193,.F.);
#243=ORIENTED_EDGE('',*,*,#194,.F.);
#244=ORIENTED_EDGE('',*,*,#184,.T.);
#245=ORIENTED_EDGE('',*,*,#195,.T.);
#246=ORIENTED_EDGE('',*,*,#196,.T.);
#247=ORIENTED_EDGE('',*,*,#193,.T.);
#248=ORIENTED_EDGE('',*,*,#197,.T.);
#249=ORIENTED_EDGE('',*,*,#198,.T.);
#250=ORIENTED_EDGE('',*,*,#187,.T.);
#251=ORIENTED_EDGE('',*,*,#180,.T.);
#252=ORIENTED_EDGE('',*,*,#199,.T.);
#253=ORIENTED_EDGE('',*,*,#200,.T.);
#254=ORIENTED_EDGE('',*,*,#201,.T.);
#255=ORIENTED_EDGE('',*,*,#202,.T.);
#256=ORIENTED_EDGE('',*,*,#203,.T.);
#257=ORIENTED_EDGE('',*,*,#203,.F.);
#258=ORIENTED_EDGE('',*,*,#204,.F.);
#259=ORIENTED_EDGE('',*,*,#205,.F.);
#260=ORIENTED_EDGE('',*,*,#206,.F.);
#261=ORIENTED_EDGE('',*,*,#202,.F.);
#262=ORIENTED_EDGE('',*,*,#207,.F.);
#263=ORIENTED_EDGE('',*,*,#208,.F.);
#264=ORIENTED_EDGE('',*,*,#204,.T.);
#265=ORIENTED_EDGE('',*,*,#201,.F.);
#266=ORIENTED_EDGE('',*,*,#209,.T.);
#267=ORIENTED_EDGE('',*,*,#210,.T.);
#268=ORIENTED_EDGE('',*,*,#211,.T.);
#269=ORIENTED_EDGE('',*,*,#212,.F.);
#270=ORIENTED_EDGE('',*,*,#207,.T.);
#271=ORIENTED_EDGE('',*,*,#212,.T.);
#272=ORIENTED_EDGE('',*,*,#213,.T.);
#273=ORIENTED_EDGE('',*,*,#214,.T.);
#274=ORIENTED_EDGE('',*,*,#205,.T.);
#275=ORIENTED_EDGE('',*,*,#208,.T.);
#276=ORIENTED_EDGE('',*,*,#199,.F.);
#277=ORIENTED_EDGE('',*,*,#206,.T.);
#278=ORIENTED_EDGE('',*,*,#214,.F.);
#279=ORIENTED_EDGE('',*,*,#215,.T.);
#280=ORIENTED_EDGE('',*,*,#195,.F.);
#281=ORIENTED_EDGE('',*,*,#186,.T.);
#282=ORIENTED_EDGE('',*,*,#190,.F.);
#283=ORIENTED_EDGE('',*,*,#188,.F.);
#284=ORIENTED_EDGE('',*,*,#198,.F.);
#285=ORIENTED_EDGE('',*,*,#216,.F.);
#286=ORIENTED_EDGE('',*,*,#213,.F.);
#287=ORIENTED_EDGE('',*,*,#211,.F.);
#288=ORIENTED_EDGE('',*,*,#217,.F.);
#289=ORIENTED_EDGE('',*,*,#194,.T.);
#290=ORIENTED_EDGE('',*,*,#196,.F.);
#291=ORIENTED_EDGE('',*,*,#215,.F.);
#292=ORIENTED_EDGE('',*,*,#191,.T.);
#293=ORIENTED_EDGE('',*,*,#217,.T.);
#294=ORIENTED_EDGE('',*,*,#210,.F.);
#295=ORIENTED_EDGE('',*,*,#218,.T.);
#296=ORIENTED_EDGE('',*,*,#179,.T.);
#297=ORIENTED_EDGE('',*,*,#200,.F.);
#298=ORIENTED_EDGE('',*,*,#216,.T.);
#299=ORIENTED_EDGE('',*,*,#197,.F.);
#300=ORIENTED_EDGE('',*,*,#192,.F.);
#301=ORIENTED_EDGE('',*,*,#218,.F.);
#302=ORIENTED_EDGE('',*,*,#209,.F.);
#303=CYLINDRICAL_SURFACE('',#343,0.0393700787401575);
#304=ADVANCED_FACE('',(#32),#303,.T.);
#305=ADVANCED_FACE('',(#33),#16,.T.);
#306=ADVANCED_FACE('',(#34),#17,.T.);
#307=ADVANCED_FACE('',(#35),#18,.T.);
#308=ADVANCED_FACE('',(#36),#19,.T.);
#309=ADVANCED_FACE('',(#37),#20,.T.);
#310=ADVANCED_FACE('',(#38),#21,.T.);
#311=ADVANCED_FACE('',(#39),#22,.T.);
#312=ADVANCED_FACE('',(#40),#23,.T.);
#313=ADVANCED_FACE('',(#41),#24,.F.);
#314=ADVANCED_FACE('',(#42),#25,.T.);
#315=ADVANCED_FACE('',(#43),#26,.T.);
#316=ADVANCED_FACE('',(#44),#27,.T.);
#317=ADVANCED_FACE('',(#45),#28,.T.);
#318=ADVANCED_FACE('',(#46),#29,.T.);
#319=ADVANCED_FACE('',(#47,#15),#30,.T.);
#320=ADVANCED_FACE('',(#48),#31,.T.);
#321=CLOSED_SHELL('',(#304,#305,#306,#307,#308,#309,#310,#311,#312,#313,
#314,#315,#316,#317,#318,#319,#320));
#322=DERIVED_UNIT_ELEMENT(#324,1.);
#323=DERIVED_UNIT_ELEMENT(#538,-3.);
#324=(
CONVERSION_BASED_UNIT('gram',#326)
MASS_UNIT()
NAMED_UNIT(#535)
);
#325=(
MASS_UNIT()
NAMED_UNIT(*)
SI_UNIT(.KILO.,.GRAM.)
);
#326=MASS_MEASURE_WITH_UNIT(MASS_MEASURE(0.001),#325);
#327=DERIVED_UNIT((#322,#323));
#328=MEASURE_REPRESENTATION_ITEM('density measure',
POSITIVE_RATIO_MEASURE(1.),#327);
#329=PROPERTY_DEFINITION_REPRESENTATION(#334,#331);
#330=PROPERTY_DEFINITION_REPRESENTATION(#335,#332);
#331=REPRESENTATION('material name',(#333),#532);
#332=REPRESENTATION('density',(#328),#532);
#333=DESCRIPTIVE_REPRESENTATION_ITEM('Generic','Generic');
#334=PROPERTY_DEFINITION('material property','material name',#546);
#335=PROPERTY_DEFINITION('material property','density of part',#546);
#336=DATE_TIME_ROLE('creation_date');
#337=APPLIED_DATE_AND_TIME_ASSIGNMENT(#338,#336,(#546));
#338=DATE_AND_TIME(#339,#340);
#339=CALENDAR_DATE(2023,11,11);
#340=LOCAL_TIME(0,0,0.,#341);
#341=COORDINATED_UNIVERSAL_TIME_OFFSET(0,0,.BEHIND.);
#342=AXIS2_PLACEMENT_3D('placement',#442,#362,#363);
#343=AXIS2_PLACEMENT_3D('',#443,#364,#365);
#344=AXIS2_PLACEMENT_3D('',#445,#366,#367);
#345=AXIS2_PLACEMENT_3D('',#448,#369,#370);
#346=AXIS2_PLACEMENT_3D('',#449,#371,#372);
#347=AXIS2_PLACEMENT_3D('',#450,#373,#374);
#348=AXIS2_PLACEMENT_3D('',#459,#379,#380);
#349=AXIS2_PLACEMENT_3D('',#465,#384,#385);
#350=AXIS2_PLACEMENT_3D('',#471,#389,#390);
#351=AXIS2_PLACEMENT_3D('',#473,#392,#393);
#352=AXIS2_PLACEMENT_3D('',#482,#398,#399);
#353=AXIS2_PLACEMENT_3D('',#489,#404,#405);
#354=AXIS2_PLACEMENT_3D('',#500,#411,#412);
#355=AXIS2_PLACEMENT_3D('',#506,#416,#417);
#356=AXIS2_PLACEMENT_3D('',#510,#420,#421);
#357=AXIS2_PLACEMENT_3D('',#518,#426,#427);
#358=AXIS2_PLACEMENT_3D('',#522,#430,#431);
#359=AXIS2_PLACEMENT_3D('',#525,#434,#435);
#360=AXIS2_PLACEMENT_3D('',#527,#437,#438);
#361=AXIS2_PLACEMENT_3D('',#529,#440,#441);
#362=DIRECTION('axis',(0.,0.,1.));
#363=DIRECTION('refdir',(1.,0.,0.));
#364=DIRECTION('center_axis',(0.,0.,1.));
#365=DIRECTION('ref_axis',(1.,0.,0.));
#366=DIRECTION('center_axis',(0.,0.,1.));
#367=DIRECTION('ref_axis',(1.,0.,0.));
#368=DIRECTION('',(0.,0.,-1.));
#369=DIRECTION('center_axis',(0.,0.,-1.));
#370=DIRECTION('ref_axis',(1.,0.,0.));
#371=DIRECTION('center_axis',(0.,0.,1.));
#372=DIRECTION('ref_axis',(1.,0.,0.));
#373=DIRECTION('center_axis',(-1.,0.,0.));
#374=DIRECTION('ref_axis',(0.,-1.,0.));
#375=DIRECTION('',(0.,1.,0.));
#376=DIRECTION('',(0.,0.,1.));
#377=DIRECTION('',(0.,-1.,0.));
#378=DIRECTION('',(0.,0.,1.));
#379=DIRECTION('center_axis',(0.,1.,0.));
#380=DIRECTION('ref_axis',(-1.,0.,0.));
#381=DIRECTION('',(1.,0.,0.));
#382=DIRECTION('',(-1.,0.,0.));
#383=DIRECTION('',(0.,0.,1.));
#384=DIRECTION('center_axis',(0.,-1.,0.));
#385=DIRECTION('ref_axis',(1.,0.,0.));
#386=DIRECTION('',(-1.,0.,0.));
#387=DIRECTION('',(0.,0.,1.));
#388=DIRECTION('',(1.,0.,0.));
#389=DIRECTION('center_axis',(0.,0.,1.));
#390=DIRECTION('ref_axis',(1.,0.,0.));
#391=DIRECTION('',(0.,1.,0.));
#392=DIRECTION('center_axis',(-1.,0.,0.));
#393=DIRECTION('ref_axis',(0.,-1.,0.));
#394=DIRECTION('',(0.,1.,0.));
#395=DIRECTION('',(0.,0.,1.));
#396=DIRECTION('',(0.,-1.,0.));
#397=DIRECTION('',(0.,0.,1.));
#398=DIRECTION('center_axis',(0.,0.,1.));
#399=DIRECTION('ref_axis',(1.,0.,0.));
#400=DIRECTION('',(0.,1.,0.));
#401=DIRECTION('',(-1.,0.,0.));
#402=DIRECTION('',(1.,1.24421545863164E-16,0.));
#403=DIRECTION('',(0.,1.,0.));
#404=DIRECTION('center_axis',(0.,-0.707106781186548,-0.707106781186548));
#405=DIRECTION('ref_axis',(-1.,0.,0.));
#406=DIRECTION('',(0.,-0.707106781186548,0.707106781186548));
#407=DIRECTION('',(-1.,0.,0.));
#408=DIRECTION('',(-0.904534033733291,0.301511344577764,-0.301511344577764));
#409=DIRECTION('',(0.,0.707106781186548,-0.707106781186548));
#410=DIRECTION('',(1.,0.,0.));
#411=DIRECTION('center_axis',(0.,0.,1.));
#412=DIRECTION('ref_axis',(1.,0.,0.));
#413=DIRECTION('',(0.,-1.,0.));
#414=DIRECTION('',(-1.,-1.17961196366423E-16,0.));
#415=DIRECTION('',(0.,1.,0.));
#416=DIRECTION('center_axis',(-1.,0.,0.));
#417=DIRECTION('ref_axis',(0.,-1.,0.));
#418=DIRECTION('',(0.,-1.,0.));
#419=DIRECTION('',(0.,0.707106781186548,0.707106781186548));
#420=DIRECTION('center_axis',(-0.316227766016838,0.,0.948683298050514));
#421=DIRECTION('ref_axis',(0.948683298050514,0.,0.316227766016838));
#422=DIRECTION('',(0.948683298050514,0.,0.316227766016838));
#423=DIRECTION('',(0.,1.,0.));
#424=DIRECTION('',(-0.948683298050514,-1.11907816810882E-16,-0.316227766016838));
#425=DIRECTION('',(0.904534033733291,0.301511344577764,0.301511344577764));
#426=DIRECTION('center_axis',(-8.34111618675755E-17,0.707106781186548,-0.707106781186548));
#427=DIRECTION('ref_axis',(-1.,0.,1.17961196366423E-16));
#428=DIRECTION('',(1.,1.17961196366423E-16,0.));
#429=DIRECTION('',(0.,-0.707106781186547,-0.707106781186547));
#430=DIRECTION('center_axis',(1.,0.,0.));
#431=DIRECTION('ref_axis',(0.,1.,0.));
#432=DIRECTION('',(0.,0.,1.));
#433=DIRECTION('',(0.,0.,1.));
#434=DIRECTION('center_axis',(-1.17961196366423E-16,1.,0.));
#435=DIRECTION('ref_axis',(-1.,-1.17961196366423E-16,0.));
#436=DIRECTION('',(-1.,-1.17961196366423E-16,0.));
#437=DIRECTION('center_axis',(0.,0.,1.));
#438=DIRECTION('ref_axis',(1.,0.,0.));
#439=DIRECTION('',(1.,0.,0.));
#440=DIRECTION('center_axis',(0.,-1.,0.));
#441=DIRECTION('ref_axis',(1.,0.,0.));
#442=CARTESIAN_POINT('',(0.,0.,0.));
#443=CARTESIAN_POINT('Origin',(-0.551181102362205,-7.64917438225994E-17,
0.0590551181102362));
#444=CARTESIAN_POINT('',(-0.590551181102362,-8.13131879137307E-17,0.078740157480315));
#445=CARTESIAN_POINT('Origin',(-0.551181102362205,-7.64917438225994E-17,
0.078740157480315));
#446=CARTESIAN_POINT('',(-0.590551181102362,-8.13131879137307E-17,0.0590551181102362));
#447=CARTESIAN_POINT('',(-0.590551181102362,-8.13131879137307E-17,0.0590551181102362));
#448=CARTESIAN_POINT('Origin',(-0.551181102362205,-7.64917438225994E-17,
0.0590551181102362));
#449=CARTESIAN_POINT('Origin',(-0.551181102362205,-7.64917438225994E-17,
0.078740157480315));
#450=CARTESIAN_POINT('Origin',(0.275590551181102,0.0492125984251968,0.177165354330709));
#451=CARTESIAN_POINT('',(0.275590551181102,-0.0492125984251968,0.177165354330709));
#452=CARTESIAN_POINT('',(0.275590551181102,0.0492125984251968,0.177165354330709));
#453=CARTESIAN_POINT('',(0.275590551181102,0.0246062992125984,0.177165354330709));
#454=CARTESIAN_POINT('',(0.275590551181102,-0.0492125984251968,0.413385826771654));
#455=CARTESIAN_POINT('',(0.275590551181102,-0.0492125984251968,0.177165354330709));
#456=CARTESIAN_POINT('',(0.275590551181102,0.0492125984251968,0.413385826771654));
#457=CARTESIAN_POINT('',(0.275590551181102,0.0492125984251968,0.413385826771654));
#458=CARTESIAN_POINT('',(0.275590551181102,0.0492125984251968,0.177165354330709));
#459=CARTESIAN_POINT('Origin',(0.78740157480315,0.0492125984251968,0.177165354330709));
#460=CARTESIAN_POINT('',(0.78740157480315,0.0492125984251968,0.177165354330709));
#461=CARTESIAN_POINT('',(0.501968503937008,0.0492125984251968,0.177165354330709));
#462=CARTESIAN_POINT('',(0.78740157480315,0.0492125984251968,0.413385826771654));
#463=CARTESIAN_POINT('',(0.78740157480315,0.0492125984251968,0.413385826771654));
#464=CARTESIAN_POINT('',(0.78740157480315,0.0492125984251968,0.177165354330709));
#465=CARTESIAN_POINT('Origin',(0.275590551181102,-0.0492125984251968,0.177165354330709));
#466=CARTESIAN_POINT('',(0.78740157480315,-0.0492125984251968,0.177165354330709));
#467=CARTESIAN_POINT('',(0.246062992125984,-0.0492125984251968,0.177165354330709));
#468=CARTESIAN_POINT('',(0.78740157480315,-0.0492125984251968,0.413385826771654));
#469=CARTESIAN_POINT('',(0.78740157480315,-0.0492125984251968,0.177165354330709));
#470=CARTESIAN_POINT('',(0.275590551181102,-0.0492125984251968,0.413385826771654));
#471=CARTESIAN_POINT('Origin',(0.531496062992126,0.,0.413385826771654));
#472=CARTESIAN_POINT('',(0.78740157480315,-0.0492125984251968,0.413385826771654));
#473=CARTESIAN_POINT('Origin',(-0.354330708661417,0.0624999999999999,0.0590551181102362));
#474=CARTESIAN_POINT('',(-0.354330708661417,-0.0625000000000001,0.0590551181102362));
#475=CARTESIAN_POINT('',(-0.354330708661417,0.0624999999999999,0.0590551181102362));
#476=CARTESIAN_POINT('',(-0.354330708661417,0.03125,0.0590551181102362));
#477=CARTESIAN_POINT('',(-0.354330708661417,-0.0625000000000001,0.177165354330709));
#478=CARTESIAN_POINT('',(-0.354330708661417,-0.0625000000000001,0.0590551181102362));
#479=CARTESIAN_POINT('',(-0.354330708661417,0.0624999999999999,0.177165354330709));
#480=CARTESIAN_POINT('',(-0.354330708661417,0.0624999999999999,0.177165354330709));
#481=CARTESIAN_POINT('',(-0.354330708661417,0.0624999999999999,0.0590551181102362));
#482=CARTESIAN_POINT('Origin',(0.216535433070866,-7.64917438225994E-17,
0.177165354330709));
#483=CARTESIAN_POINT('',(0.78740157480315,0.0624999999999999,0.177165354330709));
#484=CARTESIAN_POINT('',(0.78740157480315,-0.0624999999999999,0.177165354330709));
#485=CARTESIAN_POINT('',(0.78740157480315,0.0624999999999999,0.177165354330709));
#486=CARTESIAN_POINT('',(0.78740157480315,-0.0624999999999999,0.177165354330709));
#487=CARTESIAN_POINT('',(-0.354330708661417,-0.0625000000000001,0.177165354330709));
#488=CARTESIAN_POINT('',(0.78740157480315,-0.0624999999999999,0.177165354330709));
#489=CARTESIAN_POINT('Origin',(-0.393700787401575,-0.0477362204724409,0.0147637795275591));
#490=CARTESIAN_POINT('',(0.78740157480315,-0.0329724409448819,0.));
#491=CARTESIAN_POINT('',(0.78740157480315,-0.0625,0.0295275590551181));
#492=CARTESIAN_POINT('',(0.787401574803149,-0.0477362204724409,0.0147637795275591));
#493=CARTESIAN_POINT('',(-0.757874015748031,-0.0625,0.0295275590551181));
#494=CARTESIAN_POINT('',(-0.393700787401575,-0.0625,0.0295275590551181));
#495=CARTESIAN_POINT('',(-0.78740157480315,-0.0526574803149606,0.0196850393700787));
#496=CARTESIAN_POINT('',(-0.612283017179671,-0.11103033285612,0.0780578919112384));
#497=CARTESIAN_POINT('',(-0.78740157480315,-0.0329724409448819,0.));
#498=CARTESIAN_POINT('',(-0.78740157480315,-0.016486220472441,-0.0164862204724409));
#499=CARTESIAN_POINT('',(-0.393700787401575,-0.0329724409448819,0.));
#500=CARTESIAN_POINT('Origin',(0.,-5.46369598732853E-18,0.));
#501=CARTESIAN_POINT('',(-0.78740157480315,0.0329724409448817,0.));
#502=CARTESIAN_POINT('',(-0.78740157480315,0.0624999999999998,0.));
#503=CARTESIAN_POINT('',(0.78740157480315,0.0329724409448819,0.));
#504=CARTESIAN_POINT('',(0.393700787401575,0.0329724409448818,0.));
#505=CARTESIAN_POINT('',(0.78740157480315,-0.0625,0.));
#506=CARTESIAN_POINT('Origin',(-0.78740157480315,0.0624999999999998,0.));
#507=CARTESIAN_POINT('',(-0.78740157480315,0.0526574803149604,0.0196850393700787));
#508=CARTESIAN_POINT('',(-0.78740157480315,0.0312499999999999,0.0196850393700787));
#509=CARTESIAN_POINT('',(-0.787401574803149,0.0477362204724408,0.0147637795275591));
#510=CARTESIAN_POINT('Origin',(-0.728346456692913,0.0312499999999999,0.0393700787401575));
#511=CARTESIAN_POINT('',(-0.669291338582677,-0.0625,0.0590551181102362));
#512=CARTESIAN_POINT('',(-0.760826771653543,-0.0625,0.0285433070866142));
#513=CARTESIAN_POINT('',(-0.669291338582677,0.0624999999999998,0.0590551181102362));
#514=CARTESIAN_POINT('',(-0.669291338582677,0.0312499999999999,0.0590551181102362));
#515=CARTESIAN_POINT('',(-0.757874015748031,0.0624999999999998,0.0295275590551181));
#516=CARTESIAN_POINT('',(-0.0521653543307087,0.0624999999999999,0.264763779527559));
#517=CARTESIAN_POINT('',(-0.28164146385111,0.221244183965641,0.188271743020759));
#518=CARTESIAN_POINT('Origin',(0.393700787401575,0.0477362204724409,0.0147637795275591));
#519=CARTESIAN_POINT('',(0.78740157480315,0.0625,0.0295275590551181));
#520=CARTESIAN_POINT('',(0.393700787401575,0.0625,0.0295275590551181));
#521=CARTESIAN_POINT('',(0.78740157480315,0.0164862204724409,-0.016486220472441));
#522=CARTESIAN_POINT('Origin',(0.78740157480315,-0.0625,0.));
#523=CARTESIAN_POINT('',(0.78740157480315,0.0625,0.));
#524=CARTESIAN_POINT('',(0.78740157480315,-0.0625,0.));
#525=CARTESIAN_POINT('Origin',(0.78740157480315,0.0625,0.));
#526=CARTESIAN_POINT('',(0.78740157480315,0.0625,0.0590551181102362));
#527=CARTESIAN_POINT('Origin',(0.,0.,0.0590551181102362));
#528=CARTESIAN_POINT('',(-0.78740157480315,-0.0625,0.0590551181102362));
#529=CARTESIAN_POINT('Origin',(-0.78740157480315,-0.0625,0.));
#530=UNCERTAINTY_MEASURE_WITH_UNIT(LENGTH_MEASURE(0.000393700787401575),
#536,'DISTANCE_ACCURACY_VALUE',
'Maximum model space distance between geometric entities at asserted c
onnectivities');
#531=UNCERTAINTY_MEASURE_WITH_UNIT(LENGTH_MEASURE(0.000393700787401575),
#536,'DISTANCE_ACCURACY_VALUE',
'Maximum model space distance between geometric entities at asserted c
onnectivities');
#532=(
GEOMETRIC_REPRESENTATION_CONTEXT(3)
GLOBAL_UNCERTAINTY_ASSIGNED_CONTEXT((#530))
GLOBAL_UNIT_ASSIGNED_CONTEXT((#536,#540,#541))
REPRESENTATION_CONTEXT('','3D')
);
#533=(
GEOMETRIC_REPRESENTATION_CONTEXT(3)
GLOBAL_UNCERTAINTY_ASSIGNED_CONTEXT((#531))
GLOBAL_UNIT_ASSIGNED_CONTEXT((#536,#540,#541))
REPRESENTATION_CONTEXT('','3D')
);
#534=DIMENSIONAL_EXPONENTS(1.,0.,0.,0.,0.,0.,0.);
#535=DIMENSIONAL_EXPONENTS(1.,0.,0.,0.,0.,0.,0.);
#536=(
CONVERSION_BASED_UNIT('inch',#539)
LENGTH_UNIT()
NAMED_UNIT(#534)
);
#537=(
LENGTH_UNIT()
NAMED_UNIT(*)
SI_UNIT(.MILLI.,.METRE.)
);
#538=(
LENGTH_UNIT()
NAMED_UNIT(*)
SI_UNIT(.CENTI.,.METRE.)
);
#539=LENGTH_MEASURE_WITH_UNIT(LENGTH_MEASURE(25.4),#537);
#540=(
NAMED_UNIT(*)
PLANE_ANGLE_UNIT()
SI_UNIT($,.RADIAN.)
);
#541=(
NAMED_UNIT(*)
SI_UNIT($,.STERADIAN.)
SOLID_ANGLE_UNIT()
);
#542=SHAPE_DEFINITION_REPRESENTATION(#543,#544);
#543=PRODUCT_DEFINITION_SHAPE('',$,#546);
#544=SHAPE_REPRESENTATION('',(#342),#532);
#545=PRODUCT_DEFINITION_CONTEXT('part definition',#550,'design');
#546=PRODUCT_DEFINITION('nut tool','nut tool',#547,#545);
#547=PRODUCT_DEFINITION_FORMATION('',$,#552);
#548=PRODUCT_RELATED_PRODUCT_CATEGORY('nut tool','nut tool',(#552));
#549=APPLICATION_PROTOCOL_DEFINITION('international standard',
'automotive_design',2009,#550);
#550=APPLICATION_CONTEXT(
'Core Data for Automotive Mechanical Design Process');
#551=PRODUCT_CONTEXT('part definition',#550,'mechanical');
#552=PRODUCT('nut tool','nut tool',$,(#551));
#553=PRESENTATION_STYLE_ASSIGNMENT((#554));
#554=SURFACE_STYLE_USAGE(.BOTH.,#557);
#555=SURFACE_STYLE_RENDERING_WITH_PROPERTIES($,#561,(#556));
#556=SURFACE_STYLE_TRANSPARENT(0.);
#557=SURFACE_SIDE_STYLE('',(#558,#555));
#558=SURFACE_STYLE_FILL_AREA(#559);
#559=FILL_AREA_STYLE('',(#560));
#560=FILL_AREA_STYLE_COLOUR('',#561);
#561=COLOUR_RGB('',0.749019607843137,0.749019607843137,0.749019607843137);
ENDSEC;
END-ISO-10303-21;
